  0
SECTION
  2
HEADER
  9
$ACADVER
  1
AC1015
  9
$ACADMAINTVER
 70
     6
  9
$DWGCODEPAGE
  3
ANSI_1254
  9
$INSBASE
 10
0.0
 20
0.0
 30
0.0
  9
$EXTMIN
 10
0.0
 20
0.0
 30
0.0
  9
$EXTMAX
 10
279.4
 20
215.9
 30
0.0
  9
$LIMMIN
 10
0.0
 20
0.0
  9
$LIMMAX
 10
279.4
 20
215.9
  9
$ORTHOMODE
 70
     0
  9
$REGENMODE
 70
     1
  9
$FILLMODE
 70
     1
  9
$QTEXTMODE
 70
     0
  9
$MIRRTEXT
 70
     1
  9
$LTSCALE
 40
1.0
  9
$ATTMODE
 70
     1
  9
$TEXTSIZE
 40
3.5
  9
$TRACEWID
 40
1.0
  9
$TEXTSTYLE
  7
Standard
  9
$CLAYER
  8
0
  9
$CELTYPE
  6
ByLayer
  9
$CECOLOR
 62
   256
  9
$CELTSCALE
 40
1.0
  9
$DISPSILH
 70
     0
  9
$DIMSCALE
 40
1.0
  9
$DIMASZ
 40
3.5
  9
$DIMEXO
 40
1.0
  9
$DIMDLI
 40
3.75
  9
$DIMRND
 40
0.0
  9
$DIMDLE
 40
0.0
  9
$DIMEXE
 40
1.0
  9
$DIMTP
 40
0.0
  9
$DIMTM
 40
0.0
  9
$DIMTXT
 40
3.5
  9
$DIMCEN
 40
2.5
  9
$DIMTSZ
 40
0.0
  9
$DIMTOL
 70
     0
  9
$DIMLIM
 70
     0
  9
$DIMTIH
 70
     1
  9
$DIMTOH
 70
     1
  9
$DIMSE1
 70
     0
  9
$DIMSE2
 70
     0
  9
$DIMTAD
 70
     1
  9
$DIMZIN
 70
     0
  9
$DIMBLK
  1

  9
$DIMASO
 70
     1
  9
$DIMSHO
 70
     1
  9
$DIMPOST
  1

  9
$DIMAPOST
  1

  9
$DIMALT
 70
     0
  9
$DIMALTD
 70
     3
  9
$DIMALTF
 40
0.0393700787
  9
$DIMLFAC
 40
1.0
  9
$DIMTOFL
 70
     1
  9
$DIMTVP
 40
0.0
  9
$DIMTIX
 70
     0
  9
$DIMSOXD
 70
     0
  9
$DIMSAH
 70
     0
  9
$DIMBLK1
  1

  9
$DIMBLK2
  1

  9
$DIMSTYLE
  2
ISO-25
  9
$DIMCLRD
 70
     0
  9
$DIMCLRE
 70
     0
  9
$DIMCLRT
 70
     0
  9
$DIMTFAC
 40
1.0
  9
$DIMGAP
 40
1.524
  9
$DIMJUST
 70
     0
  9
$DIMSD1
 70
     0
  9
$DIMSD2
 70
     0
  9
$DIMTOLJ
 70
     0
  9
$DIMTZIN
 70
     0
  9
$DIMALTZ
 70
     0
  9
$DIMALTTZ
 70
     0
  9
$DIMUPT
 70
     0
  9
$DIMDEC
 70
     2
  9
$DIMTDEC
 70
     2
  9
$DIMALTU
 70
     2
  9
$DIMALTTD
 70
     3
  9
$DIMTXSTY
  7
Standard
  9
$DIMAUNIT
 70
     0
  9
$DIMADEC
 70
     2
  9
$DIMALTRND
 40
0.0
  9
$DIMAZIN
 70
     0
  9
$DIMDSEP
 70
    44
  9
$DIMATFIT
 70
     3
  9
$DIMFRAC
 70
     0
  9
$DIMLDRBLK
  1

  9
$DIMLUNIT
 70
     2
  9
$DIMLWD
 70
    -2
  9
$DIMLWE
 70
    -2
  9
$DIMTMOVE
 70
     0
  9
$LUNITS
 70
     2
  9
$LUPREC
 70
     2
  9
$SKETCHINC
 40
1.0
  9
$FILLETRAD
 40
10.0
  9
$AUNITS
 70
     0
  9
$AUPREC
 70
     2
  9
$MENU
  1
.
  9
$ELEVATION
 40
0.0
  9
$PELEVATION
 40
0.0
  9
$THICKNESS
 40
0.0
  9
$LIMCHECK
 70
     0
  9
$CHAMFERA
 40
0.0
  9
$CHAMFERB
 40
0.0
  9
$CHAMFERC
 40
0.0
  9
$CHAMFERD
 40
0.0
  9
$SKPOLY
 70
     0
  9
$TDCREATE
 40
2458985.683074688
  9
$TDUCREATE
 40
2458985.558074688
  9
$TDUPDATE
 40
2458985.683074965
  9
$TDUUPDATE
 40
2458985.558074965
  9
$TDINDWG
 40
0.0000000116
  9
$TDUSRTIMER
 40
0.0000000116
  9
$USRTIMER
 70
     1
  9
$ANGBASE
 50
0.0
  9
$ANGDIR
 70
     0
  9
$PDMODE
 70
     0
  9
$PDSIZE
 40
-1.0
  9
$PLINEWID
 40
0.0
  9
$SPLFRAME
 70
     0
  9
$SPLINETYPE
 70
     6
  9
$SPLINESEGS
 70
     8
  9
$HANDSEED
  5
CB
  9
$SURFTAB1
 70
     6
  9
$SURFTAB2
 70
     6
  9
$SURFTYPE
 70
     6
  9
$SURFU
 70
     6
  9
$SURFV
 70
     6
  9
$UCSBASE
  2

  9
$UCSNAME
  2

  9
$UCSORG
 10
0.0
 20
0.0
 30
0.0
  9
$UCSXDIR
 10
1.0
 20
0.0
 30
0.0
  9
$UCSYDIR
 10
0.0
 20
1.0
 30
0.0
  9
$UCSORTHOREF
  2

  9
$UCSORTHOVIEW
 70
     0
  9
$UCSORGTOP
 10
0.0
 20
0.0
 30
0.0
  9
$UCSORGBOTTOM
 10
0.0
 20
0.0
 30
0.0
  9
$UCSORGLEFT
 10
0.0
 20
0.0
 30
0.0
  9
$UCSORGRIGHT
 10
0.0
 20
0.0
 30
0.0
  9
$UCSORGFRONT
 10
0.0
 20
0.0
 30
0.0
  9
$UCSORGBACK
 10
0.0
 20
0.0
 30
0.0
  9
$PUCSBASE
  2

  9
$PUCSNAME
  2

  9
$PUCSORG
 10
0.0
 20
0.0
 30
0.0
  9
$PUCSXDIR
 10
1.0
 20
0.0
 30
0.0
  9
$PUCSYDIR
 10
0.0
 20
1.0
 30
0.0
  9
$PUCSORTHOREF
  2

  9
$PUCSORTHOVIEW
 70
     0
  9
$PUCSORGTOP
 10
0.0
 20
0.0
 30
0.0
  9
$PUCSORGBOTTOM
 10
0.0
 20
0.0
 30
0.0
  9
$PUCSORGLEFT
 10
0.0
 20
0.0
 30
0.0
  9
$PUCSORGRIGHT
 10
0.0
 20
0.0
 30
0.0
  9
$PUCSORGFRONT
 10
0.0
 20
0.0
 30
0.0
  9
$PUCSORGBACK
 10
0.0
 20
0.0
 30
0.0
  9
$USERI1
 70
     0
  9
$USERI2
 70
     0
  9
$USERI3
 70
     0
  9
$USERI4
 70
     0
  9
$USERI5
 70
     0
  9
$USERR1
 40
0.0
  9
$USERR2
 40
0.0
  9
$USERR3
 40
0.0
  9
$USERR4
 40
0.0
  9
$USERR5
 40
0.0
  9
$WORLDVIEW
 70
     1
  9
$SHADEDGE
 70
     3
  9
$SHADEDIF
 70
    70
  9
$TILEMODE
 70
     1
  9
$MAXACTVP
 70
    64
  9
$PINSBASE
 10
0.0
 20
0.0
 30
0.0
  9
$PLIMCHECK
 70
     0
  9
$PEXTMIN
 10
1.0000000000E+20
 20
1.0000000000E+20
 30
1.0000000000E+20
  9
$PEXTMAX
 10
-1.0000000000E+20
 20
-1.0000000000E+20
 30
-1.0000000000E+20
  9
$PLIMMIN
 10
0.0
 20
0.0
  9
$PLIMMAX
 10
420.0
 20
297.0
  9
$UNITMODE
 70
     0
  9
$VISRETAIN
 70
     1
  9
$PLINEGEN
 70
     0
  9
$PSLTSCALE
 70
     1
  9
$TREEDEPTH
 70
  3020
  9
$CMLSTYLE
  2
Standard
  9
$CMLJUST
 70
     0
  9
$CMLSCALE
 40
20.0
  9
$PROXYGRAPHICS
 70
     1
  9
$MEASUREMENT
 70
     1
  9
$CELWEIGHT
370
    -1
  9
$ENDCAPS
280
     0
  9
$JOINSTYLE
280
     0
  9
$LWDISPLAY
290
     1
  9
$INSUNITS
 70
     4
  9
$HYPERLINKBASE
  1

  9
$STYLESHEET
  1

  9
$XEDIT
290
     1
  9
$CEPSNTYPE
380
     0
  9
$PSTYLEMODE
290
     1
  9
$FINGERPRINTGUID
  2
{258c402f-1c85-4ce9-88f2-f7f7a6fc3394}
  9
$VERSIONGUID
  2
{FAEB1C32-E019-11D5-929B-00C0DF256EC4}
  9
$EXTNAMES
290
     1
  9
$PSVPSCALE
 40
0.0
  9
$OLESTARTUP
290
     0
  0
ENDSEC
  0
SECTION
  2
CLASSES
  0
CLASS
  1
ACDBDICTIONARYWDFLT
  2
AcDbDictionaryWithDefault
  3
ObjectDBX Classes
 90
        0
280
     0
281
     0
  0
CLASS
  1
VISUALSTYLE
  2
AcDbVisualStyle
  3
ObjectDBX Classes
 90
     4095
280
     0
281
     0
  0
CLASS
  1
MATERIAL
  2
AcDbMaterial
  3
ObjectDBX Classes
 90
     1153
280
     0
281
     0
  0
CLASS
  1
SCALE
  2
AcDbScale
  3
ObjectDBX Classes
 90
     1153
280
     0
281
     0
  0
CLASS
  1
TABLESTYLE
  2
AcDbTableStyle
  3
ObjectDBX Classes
 90
     4095
280
     0
281
     0
  0
CLASS
  1
MLEADERSTYLE
  2
AcDbMLeaderStyle
  3
ACDB_MLEADERSTYLE_CLASS
 90
     4095
280
     0
281
     0
  0
CLASS
  1
SUN
  2
AcDbSun
  3
SCENEOE
 90
     1153
280
     0
281
     0
  0
CLASS
  1
ACDBPLACEHOLDER
  2
AcDbPlaceHolder
  3
ObjectDBX Classes
 90
        0
280
     0
281
     0
  0
CLASS
  1
LAYOUT
  2
AcDbLayout
  3
ObjectDBX Classes
 90
        0
280
     0
281
     0
  0
ENDSEC
  0
SECTION
  2
TABLES
  0
TABLE
  2
VPORT
  5
8
330
0
100
AcDbSymbolTable
 70
     1
  0
VPORT
  5
29
330
8
100
AcDbSymbolTableRecord
100
AcDbViewportTableRecord
  2
*Active
 70
     0
 10
0.0
 20
0.0
 11
1.0
 21
1.0
 12
139.7
 22
107.95
 13
0.0
 23
0.0
 14
10.0
 24
10.0
 15
10.0
 25
10.0
 16
0.0
 26
0.0
 36
1.0
 17
0.0
 27
0.0
 37
0.0
 40
215.9
 41
1.2941176471
 42
50.0
 43
0.0
 44
0.0
 50
0.0
 51
0.0
 71
     0
 72
  2000
 73
     1
 74
     3
 75
     0
 76
     0
 77
     0
 78
     0
281
     0
 65
     1
110
0.0
120
0.0
130
0.0
111
1.0
121
0.0
131
0.0
112
0.0
122
1.0
132
0.0
 79
     0
146
0.0
  0
ENDTAB
  0
TABLE
  2
LTYPE
  5
5
330
0
100
AcDbSymbolTable
 70
     6
  0
LTYPE
  5
14
330
5
100
AcDbSymbolTableRecord
100
AcDbLinetypeTableRecord
  2
ByBlock
 70
     0
  3

 72
    65
 73
     0
 40
0.0
  0
LTYPE
  5
15
330
5
100
AcDbSymbolTableRecord
100
AcDbLinetypeTableRecord
  2
ByLayer
 70
     0
  3

 72
    65
 73
     0
 40
0.0
  0
LTYPE
  5
16
330
5
100
AcDbSymbolTableRecord
100
AcDbLinetypeTableRecord
  2
Continuous
 70
     0
  3
Solid line
 72
    65
 73
     0
 40
0.0
  0
LTYPE
  5
6E
330
5
100
AcDbSymbolTableRecord
100
AcDbLinetypeTableRecord
  2
HIDDEN
 70
     0
  3
Hidden __ __ __ __ __ __ __ __ __ __ __ __ __ __
 72
    65
 73
     2
 40
1.905
 49
1.27
 74
     0
 49
-0.635
 74
     0
  0
LTYPE
  5
6F
330
5
100
AcDbSymbolTableRecord
100
AcDbLinetypeTableRecord
  2
PHANTOM
 70
     0
  3
Phantom ______  __  __  ______  __  __  ______
 72
    65
 73
     6
 40
12.7
 49
6.35
 74
     0
 49
-1.27
 74
     0
 49
1.27
 74
     0
 49
-1.27
 74
     0
 49
1.27
 74
     0
 49
-1.27
 74
     0
  0
LTYPE
  5
70
330
5
100
AcDbSymbolTableRecord
100
AcDbLinetypeTableRecord
  2
CENTER
 70
     0
  3
Center ____ _ ____ _ ____ _ ____ _ ____ _ ____
 72
    65
 73
     4
 40
10.16
 49
6.35
 74
     0
 49
-1.27
 74
     0
 49
1.27
 74
     0
 49
-1.27
 74
     0
  0
LTYPE
  5
71
330
5
100
AcDbSymbolTableRecord
100
AcDbLinetypeTableRecord
  2
CENTERX2
 70
     0
  3
Center (2x) ________  __  ________  __  _____
 72
    65
 73
     4
 40
20.32
 49
12.7
 74
     0
 49
-2.54
 74
     0
 49
2.54
 74
     0
 49
-2.54
 74
     0
  0
LTYPE
  5
72
330
5
100
AcDbSymbolTableRecord
100
AcDbLinetypeTableRecord
  2
DOT2
 70
     0
  3
Dot (.5x) ........................................
 72
    65
 73
     2
 40
0.635
 49
0.0
 74
     0
 49
-0.635
 74
     0
  0
ENDTAB
  0
TABLE
  2
LAYER
  5
2
330
0
100
AcDbSymbolTable
 70
    17
  0
LAYER
  5
10
330
2
100
AcDbSymbolTableRecord
100
AcDbLayerTableRecord
  2
0
 70
     0
 62
     7
  6
Continuous
370
    -3
390
F
  0
LAYER
  5
73
330
2
100
AcDbSymbolTableRecord
100
AcDbLayerTableRecord
  2
FORMAT
 70
     0
 62
     7
  6
Continuous
370
    -3
390
F
  0
LAYER
  5
74
330
2
100
AcDbSymbolTableRecord
100
AcDbLayerTableRecord
  2
YARDIMCI_GEOMETRI
 70
     0
 62
    -6
  6
Continuous
290
     0
370
    -3
390
F
  0
LAYER
  5
75
330
2
100
AcDbSymbolTableRecord
100
AcDbLayerTableRecord
  2
SAYFA_CERCEVESI
 70
     0
 62
     7
  6
Continuous
370
    25
390
F
  0
LAYER
  5
76
330
2
100
AcDbSymbolTableRecord
100
AcDbLayerTableRecord
  2
ANTET
 70
     0
 62
     7
  6
Continuous
370
    -3
390
F
  0
LAYER
  5
77
330
2
100
AcDbSymbolTableRecord
100
AcDbLayerTableRecord
  2
OLCU
 70
     0
 62
   150
  6
Continuous
370
    -3
390
F
  0
LAYER
  5
78
330
2
100
AcDbSymbolTableRecord
100
AcDbLayerTableRecord
  2
METIN
 70
     0
 62
    96
  6
Continuous
370
    -3
390
F
  0
LAYER
  5
79
330
2
100
AcDbSymbolTableRecord
100
AcDbLayerTableRecord
  2
BALON
 70
     0
 62
     5
  6
Continuous
370
    -3
390
F
  0
LAYER
  5
7A
330
2
100
AcDbSymbolTableRecord
100
AcDbLayerTableRecord
  2
VURGU
 70
     0
 62
     7
  6
Continuous
370
    -3
390
F
  0
LAYER
  5
7B
330
2
100
AcDbSymbolTableRecord
100
AcDbLayerTableRecord
  2
SILIK
 70
     0
 62
     7
  6
Continuous
370
    -3
390
F
  0
LAYER
  5
7C
330
2
100
AcDbSymbolTableRecord
100
AcDbLayerTableRecord
  2
MODEL
 70
     0
 62
     7
  6
Continuous
370
    -3
390
F
  0
LAYER
  5
7D
330
2
100
AcDbSymbolTableRecord
100
AcDbLayerTableRecord
  2
DETAYLANDıRMA
 70
     0
 62
   190
  6
Continuous
370
    -3
390
F
  0
LAYER
  5
7E
330
2
100
AcDbSymbolTableRecord
100
AcDbLayerTableRecord
  2
TOLERANS
 70
     0
 62
   230
  6
Continuous
370
    -3
390
F
  0
LAYER
  5
7F
330
2
100
AcDbSymbolTableRecord
100
AcDbLayerTableRecord
  2
MERKEZ_CIZGILERI
 70
     0
 62
    30
  6
Continuous
370
    -3
390
F
  0
LAYER
  5
80
330
2
100
AcDbSymbolTableRecord
100
AcDbLayerTableRecord
  2
KESIT-DETAY_CIZGILERI
 70
     0
 62
     7
  6
Continuous
370
    -3
390
F
  0
LAYER
  5
81
330
2
100
AcDbSymbolTableRecord
100
AcDbLayerTableRecord
  2
\U+041E\U+0421\U+0415\U+0412\U+042B\U+0415
 70
     0
 62
     7
  6
Continuous
370
    -3
390
F
  0
LAYER
  5
82
330
2
100
AcDbSymbolTableRecord
100
AcDbLayerTableRecord
  2
\U+0412\U+041E\U+0414\U+042F\U+041D\U+042B\U+0415_\U+0417\U+041D\U+0410\U+041A\U+0418
 70
     0
 62
    11
  6
Continuous
370
    -3
390
F
  0
ENDTAB
  0
TABLE
  2
STYLE
  5
3
330
0
100
AcDbSymbolTable
 70
     1
  0
STYLE
  5
11
330
3
100
AcDbSymbolTableRecord
100
AcDbTextStyleTableRecord
  2
Standard
 70
     0
 40
0.0
 41
1.0
 50
0.0
 71
     0
 42
3.5
  3
txt
  4

  0
ENDTAB
  0
TABLE
  2
VIEW
  5
6
330
0
100
AcDbSymbolTable
 70
     0
  0
ENDTAB
  0
TABLE
  2
UCS
  5
7
330
0
100
AcDbSymbolTable
 70
     0
  0
ENDTAB
  0
TABLE
  2
APPID
  5
9
330
0
100
AcDbSymbolTable
 70
     1
  0
APPID
  5
12
330
9
100
AcDbSymbolTableRecord
100
AcDbRegAppTableRecord
  2
ACAD
 70
     0
  0
ENDTAB
  0
TABLE
  2
DIMSTYLE
  5
A
330
0
100
AcDbSymbolTable
 70
     1
100
AcDbDimStyleTable
  0
DIMSTYLE
105
27
330
A
100
AcDbSymbolTableRecord
100
AcDbDimStyleTableRecord
  2
ISO-25
 70
     0
 41
2.5
 42
0.625
 43
3.75
 44
1.25
 73
     0
 74
     0
 77
     1
 78
     8
140
2.5
141
2.5
143
0.0393700787
147
0.625
171
     3
172
     1
178
     0
271
     2
272
     2
274
     3
278
    44
283
     0
284
     8
340
11
  0
ENDTAB
  0
TABLE
  2
BLOCK_RECORD
  5
1
330
0
100
AcDbSymbolTable
 70
     3
  0
BLOCK_RECORD
  5
1F
330
1
100
AcDbSymbolTableRecord
100
AcDbBlockTableRecord
  2
*Model_Space
340
22
  0
BLOCK_RECORD
  5
1B
330
1
100
AcDbSymbolTableRecord
100
AcDbBlockTableRecord
  2
*Paper_Space
340
1E
  0
BLOCK_RECORD
  5
23
330
1
100
AcDbSymbolTableRecord
100
AcDbBlockTableRecord
  2
*Paper_Space0
340
26
  0
BLOCK_RECORD
  5
88
330
1
100
AcDbSymbolTableRecord
100
AcDbBlockTableRecord
  2
SW_CENTERMARKSYMBOL_0
340
0
102
{BLKREFS
331
93
102
}
  0
BLOCK_RECORD
  5
B2
330
1
100
AcDbSymbolTableRecord
100
AcDbBlockTableRecord
  2
SW_CENTERMARKSYMBOL_1
340
0
102
{BLKREFS
331
BD
102
}
  0
ENDTAB
  0
ENDSEC
  0
SECTION
  2
BLOCKS
  0
BLOCK
  5
20
330
1F
100
AcDbEntity
  8
0
100
AcDbBlockBegin
  2
*Model_Space
 70
     0
 10
0.0
 20
0.0
 30
0.0
  3
*Model_Space
  1

  0
ENDBLK
  5
21
330
1F
100
AcDbEntity
  8
0
100
AcDbBlockEnd
  0
BLOCK
  5
1C
330
1B
100
AcDbEntity
 67
     1
  8
0
100
AcDbBlockBegin
  2
*Paper_Space
 70
     0
 10
0.0
 20
0.0
 30
0.0
  3
*Paper_Space
  1

  0
ENDBLK
  5
1D
330
1B
100
AcDbEntity
 67
     1
  8
0
100
AcDbBlockEnd
  0
BLOCK
  5
24
330
23
100
AcDbEntity
  8
0
100
AcDbBlockBegin
  2
*Paper_Space0
 70
     0
 10
0.0
 20
0.0
 30
0.0
  3
*Paper_Space0
  1

  0
ENDBLK
  5
25
330
23
100
AcDbEntity
  8
0
100
AcDbBlockEnd
  0
BLOCK
  5
89
330
88
100
AcDbEntity
  8
0
100
AcDbBlockBegin
  2
SW_CENTERMARKSYMBOL_0
 70
     0
 10
0.0
 20
0.0
 30
0.0
  3
SW_CENTERMARKSYMBOL_0
  1

  0
LINE
  5
8B
330
88
100
AcDbEntity
  8
FORMAT
 62
     0
100
AcDbLine
 10
0.0
 20
0.0
 30
0.0
 11
0.0
 21
2.5
 31
0.0
  0
LINE
  5
8C
330
88
100
AcDbEntity
  8
FORMAT
 62
     0
100
AcDbLine
 10
0.0
 20
0.0
 30
0.0
 11
-2.5
 21
0.0
 31
0.0
  0
LINE
  5
8D
330
88
100
AcDbEntity
  8
FORMAT
 62
     0
100
AcDbLine
 10
0.0
 20
0.0
 30
0.0
 11
0.0
 21
-2.5
 31
0.0
  0
LINE
  5
8E
330
88
100
AcDbEntity
  8
FORMAT
 62
     0
100
AcDbLine
 10
0.0
 20
0.0
 30
0.0
 11
2.5
 21
0.0
 31
0.0
  0
LINE
  5
8F
330
88
100
AcDbEntity
  8
FORMAT
 62
     0
100
AcDbLine
 10
0.0
 20
5.0
 30
0.0
 11
0.0
 21
115.0
 31
0.0
  0
LINE
  5
90
330
88
100
AcDbEntity
  8
FORMAT
 62
     0
100
AcDbLine
 10
-5.0
 20
0.0
 30
0.0
 11
-115.0
 21
0.0
 31
0.0
  0
LINE
  5
91
330
88
100
AcDbEntity
  8
FORMAT
 62
     0
100
AcDbLine
 10
0.0
 20
-5.0
 30
0.0
 11
0.0
 21
-115.0
 31
0.0
  0
LINE
  5
92
330
88
100
AcDbEntity
  8
FORMAT
 62
     0
100
AcDbLine
 10
5.0
 20
0.0
 30
0.0
 11
115.0
 21
0.0
 31
0.0
  0
ENDBLK
  5
8A
330
88
100
AcDbEntity
  8
0
100
AcDbBlockEnd
  0
BLOCK
  5
B3
330
B2
100
AcDbEntity
  8
0
100
AcDbBlockBegin
  2
SW_CENTERMARKSYMBOL_1
 70
     0
 10
0.0
 20
0.0
 30
0.0
  3
SW_CENTERMARKSYMBOL_1
  1

  0
LINE
  5
B5
330
B2
100
AcDbEntity
  8
FORMAT
 62
     0
100
AcDbLine
 10
0.0
 20
0.0
 30
0.0
 11
0.0
 21
2.5
 31
0.0
  0
LINE
  5
B6
330
B2
100
AcDbEntity
  8
FORMAT
 62
     0
100
AcDbLine
 10
0.0
 20
0.0
 30
0.0
 11
-2.5
 21
0.0
 31
0.0
  0
LINE
  5
B7
330
B2
100
AcDbEntity
  8
FORMAT
 62
     0
100
AcDbLine
 10
0.0
 20
0.0
 30
0.0
 11
0.0
 21
-2.5
 31
0.0
  0
LINE
  5
B8
330
B2
100
AcDbEntity
  8
FORMAT
 62
     0
100
AcDbLine
 10
0.0
 20
0.0
 30
0.0
 11
2.5
 21
0.0
 31
0.0
  0
LINE
  5
B9
330
B2
100
AcDbEntity
  8
FORMAT
 62
     0
100
AcDbLine
 10
0.0
 20
5.0
 30
0.0
 11
0.0
 21
82.5
 31
0.0
  0
LINE
  5
BA
330
B2
100
AcDbEntity
  8
FORMAT
 62
     0
100
AcDbLine
 10
-5.0
 20
0.0
 30
0.0
 11
-82.5
 21
0.0
 31
0.0
  0
LINE
  5
BB
330
B2
100
AcDbEntity
  8
FORMAT
 62
     0
100
AcDbLine
 10
0.0
 20
-5.0
 30
0.0
 11
0.0
 21
-82.5
 31
0.0
  0
LINE
  5
BC
330
B2
100
AcDbEntity
  8
FORMAT
 62
     0
100
AcDbLine
 10
5.0
 20
0.0
 30
0.0
 11
82.5
 21
0.0
 31
0.0
  0
ENDBLK
  5
B4
330
B2
100
AcDbEntity
  8
0
100
AcDbBlockEnd
  0
ENDSEC
  0
SECTION
  2
ENTITIES
  0
LINE
  5
83
330
1F
100
AcDbEntity
  8
0
  6
Continuous
 62
     7
370
    25
100
AcDbLine
 10
191.5255334047
 20
29.3862139987
 30
0.0
 11
354.4002566223
 21
29.3862139987
 31
0.0
  0
LINE
  5
84
330
1F
100
AcDbEntity
  8
0
  6
Continuous
 62
     7
370
    25
100
AcDbLine
 10
354.4002566223
 20
189.3862139987
 30
0.0
 11
191.5647430925
 21
189.3862139987
 31
0.0
  0
CIRCLE
  5
85
330
1F
100
AcDbEntity
  8
0
  6
Continuous
 62
     7
370
    25
100
AcDbCircle
 10
112.4002566223
 20
109.3862139987
 30
0.0
 40
91.99999999999999
  0
CIRCLE
  5
86
330
1F
100
AcDbEntity
  8
0
  6
Continuous
 62
     7
370
    25
100
AcDbCircle
 10
112.4002566223
 20
109.3862139987
 30
0.0
 40
112.5
  0
LINE
  5
87
330
1F
100
AcDbEntity
  8
0
  6
Continuous
 62
     7
370
    25
100
AcDbLine
 10
354.4002566223
 20
189.3862139987
 30
0.0
 11
354.4002566223
 21
29.3862139987
 31
0.0
  0
INSERT
  5
93
330
1F
100
AcDbEntity
  8
FORMAT
100
AcDbBlockReference
  2
SW_CENTERMARKSYMBOL_0
 10
112.4002566223
 20
109.3862139987
 30
0.0
  0
LINE
  5
94
330
1F
100
AcDbEntity
  8
0
  6
Continuous
 62
     7
370
    25
100
AcDbLine
 10
-0.0997433777
 20
-102.4254746159
 30
0.0
 11
-0.0997433777
 21
-629.4254746159
 31
0.0
  0
LINE
  5
95
330
1F
100
AcDbEntity
  8
0
  6
Continuous
 62
     7
370
    25
100
AcDbLine
 10
224.9002566223
 20
-285.9741833557
 30
0.0
 11
224.9002566223
 21
-102.4254746159
 31
0.0
  0
LINE
  5
96
330
1F
100
AcDbEntity
  8
0
  6
Continuous
 62
     7
370
    25
100
AcDbLine
 10
224.9002566223
 20
-629.4254746159
 30
0.0
 11
224.9002566223
 21
-445.9254746159
 31
0.0
  0
LINE
  5
97
330
1F
100
AcDbEntity
  8
0
  6
Continuous
 62
     7
370
    25
100
AcDbLine
 10
224.9002566223
 20
-445.9254746159
 30
0.0
 11
354.4002566223
 21
-445.9254746159
 31
0.0
  0
LINE
  5
98
330
1F
100
AcDbEntity
  8
0
  6
Continuous
 62
     7
370
    25
100
AcDbLine
 10
354.4002566223
 20
-285.9254746159
 30
0.0
 11
224.8655715095
 21
-285.9254746159
 31
0.0
  0
LWPOLYLINE
  5
99
330
1F
100
AcDbEntity
  8
0
  6
Continuous
 62
     7
370
    25
100
AcDbPolyline
 90
       45
 70
   128
 43
0.0
 10
224.8655704792
 20
-285.9741833557
 10
224.8464217409
 20
-286.0011976415
 10
224.5115090055
 20
-286.4729436665
 10
223.8791735719
 20
-287.3678592992
 10
223.0373492331
 20
-288.5670269749
 10
221.967540458
 20
-290.1050308877
 10
220.6542434045
 20
-292.0154814611
 10
219.1446228933
 20
-294.2448654485
 10
217.3417343201
 20
-296.9582558841
 10
215.3739900787
 20
-299.9911149698
 10
213.2278630794
 20
-303.3956934367
 10
210.9779188787
 20
-307.0926139348
 10
208.2952689525
 20
-311.7069769592
 10
205.5787897673
 20
-316.6711444606
 10
202.8254821114
 20
-322.1016853846
 10
200.1739515042
 20
-327.8732537448
 10
198.1392245842
 20
-332.835808587
 10
196.2773016649
 20
-338.0129561865
 10
194.6060030404
 20
-343.5319912597
 10
193.2365408692
 20
-349.2445018972
 10
192.4027752544
 20
-353.9221864923
 10
191.8279017401
 20
-358.6797304194
 10
191.5308633106
 20
-363.6264536136
 10
191.5416081765
 20
-368.5907186607
 10
191.849726844
 20
-373.4004677665
 10
192.4369986484
 20
-378.1578118473
 10
193.3103070351
 20
-382.9586817797
 10
194.4256603193
 20
-387.6491219077
 10
196.2001356041
 20
-393.6046829481
 10
198.2549555149
 20
-399.3137857732
 10
200.5813976978
 20
-404.9087534791
 10
203.0538382767
 20
-410.2179329669
 10
205.6126328523
 20
-415.2441927923
 10
208.195522804
 20
-419.9669681446
 10
210.8032319089
 20
-424.4654403372
 10
213.3285512251
 20
-428.6173453125
 10
216.0099283277
 20
-432.8489578829
 10
218.4537270928
 20
-436.5731115108
 10
220.667768201
 20
-439.8555249741
 10
222.4795223514
 20
-442.4839146696
 10
223.505179359
 20
-443.9515730273
 10
224.2611055238
 20
-445.0241441177
 10
224.7389090937
 20
-445.6985744544
 10
224.9002566223
 20
-445.9254746159
 10
224.9002566223
 20
-445.9254746159
  0
LINE
  5
9A
330
1F
100
AcDbEntity
  8
0
  6
Continuous
 62
     7
370
    25
100
AcDbLine
 10
224.9002566223
 20
-629.4254746159
 30
0.0
 11
-0.0997433777
 21
-629.4254746159
 31
0.0
  0
LINE
  5
9B
330
1F
100
AcDbEntity
  8
0
  6
Continuous
 62
     7
370
    25
100
AcDbLine
 10
224.9002566223
 20
-102.4254746159
 30
0.0
 11
-0.0997433777
 21
-102.4254746159
 31
0.0
  0
LINE
  5
9C
330
1F
100
AcDbEntity
  8
0
  6
Continuous
 62
     7
370
    25
100
AcDbLine
 10
354.4002566223
 20
-285.9254746159
 30
0.0
 11
354.4002566223
 21
-445.9254746159
 31
0.0
  0
LINE
  5
9D
330
1F
100
AcDbEntity
  8
0
  6
Continuous
 62
     7
370
    25
100
AcDbLine
 10
224.9002566223
 20
664.1877963778
 30
0.0
 11
224.9002566223
 21
847.6877963778
 31
0.0
  0
LINE
  5
9E
330
1F
100
AcDbEntity
  8
0
  6
Continuous
 62
     7
370
    25
100
AcDbLine
 10
224.9002566223
 20
320.6877963778
 30
0.0
 11
224.9002566223
 21
504.2366651225
 31
0.0
  0
LINE
  5
9F
330
1F
100
AcDbEntity
  8
0
  6
Continuous
 62
     7
370
    25
100
AcDbLine
 10
-0.0997433777
 20
847.6877963778
 30
0.0
 11
-0.0997433777
 21
320.6877963778
 31
0.0
  0
LINE
  5
A0
330
1F
100
AcDbEntity
  8
0
  6
Continuous
 62
     7
370
    25
100
AcDbLine
 10
224.8655128099
 20
504.1877963778
 30
0.0
 11
354.4002566223
 21
504.1877963778
 31
0.0
  0
LINE
  5
A1
330
1F
100
AcDbEntity
  8
0
  6
Continuous
 62
     7
370
    25
100
AcDbLine
 10
354.4002566223
 20
664.1877963778
 30
0.0
 11
224.9002566223
 21
664.1877963778
 31
0.0
  0
SPLINE
  5
A2
330
1F
100
AcDbEntity
  8
0
  6
Continuous
 62
     7
370
    25
100
AcDbSpline
210
0.0
220
0.0
230
1.0
 70
     8
 71
     3
 72
    49
 73
    45
 74
     0
 42
0.000000001
 43
0.00000001
 40
0.0
 40
0.0
 40
0.0
 40
0.0
 40
0.022244687467141
 40
0.0446677107330884
 40
0.0676404997747341
 40
0.0907952334051904
 40
0.1130361310146424
 40
0.1354197932996132
 40
0.1582182604903454
 40
0.181145635387452
 40
0.2054492973455029
 40
0.2298837908840451
 40
0.2547006973287231
 40
0.2796403003645393
 40
0.3082293065293191
 40
0.337007042746253
 40
0.3664284263711559
 40
0.3961107277577768
 40
0.4155922742778906
 40
0.4351812262539173
 40
0.4551484909442501
 40
0.4752668038711097
 40
0.4947555948867131
 40
0.5144055136660891
 40
0.534560423432552
 40
0.5548837016140167
 40
0.5770133612005615
 40
0.5993183136094098
 40
0.6221018769499308
 40
0.6450227726642119
 40
0.6739240646010318
 40
0.7030366594243842
 40
0.7327716210703129
 40
0.7627142869750463
 40
0.7917833923898079
 40
0.8210690754926985
 40
0.8511069824428653
 40
0.8814426908364655
 40
0.9031395243965803
 40
0.92497316329632
 40
0.9472630948381583
 40
0.9697221201475128
 40
0.9914230475149663
 40
1.0
 40
1.0
 40
1.0
 40
1.0
 10
224.900256622315
 20
664.1877963778348
 30
0.0
 10
224.8711349765902
 20
664.1468708560748
 30
0.0
 10
224.8126582167244
 20
664.0646917123902
 30
0.0
 10
224.3379205198875
 20
663.395834043218
 30
0.0
 10
223.5770927386853
 20
662.3179398952104
 30
0.0
 10
222.524356424553
 20
660.8139102391266
 30
0.0
 10
221.2249118122606
 20
658.9359035393576
 30
0.0
 10
219.7056348291907
 20
656.7084209020331
 30
0.0
 10
217.9681466227521
 20
654.1146656561268
 30
0.0
 10
216.0023442331705
 20
651.1139872731651
 30
0.0
 10
213.8355622589423
 20
647.7136655164438
 30
0.0
 10
211.4870256798759
 20
643.8979604325823
 30
0.0
 10
209.0323523891917
 20
639.736879515026
 30
0.0
 10
206.3950710772682
 20
635.0266390795509
 30
0.0
 10
203.6285630632471
 20
629.7346302820056
 30
0.0
 10
200.7950967636633
 20
623.7797451989925
 30
0.0
 10
198.1039677769066
 20
617.3748362677366
 30
0.0
 10
195.957348532155
 20
611.3164606918435
 30
0.0
 10
194.3516812128593
 20
605.7948623724378
 30
0.0
 10
193.1971600381726
 20
600.9140170516857
 30
0.0
 10
192.2990449160255
 20
595.8586999590942
 30
0.0
 10
191.7102268019074
 20
590.7182487457931
 30
0.0
 10
191.4529453679515
 20
585.5513617933775
 30
0.0
 10
191.531767835511
 20
580.3695712967528
 30
0.0
 10
191.9548497185411
 20
575.1473939251823
 30
0.0
 10
192.7379697110504
 20
569.7892669192552
 30
0.0
 10
193.8828352931315
 20
564.372891998424
 30
0.0
 10
195.380920904722
 20
558.922727468112
 30
0.0
 10
197.1552854846959
 20
553.6075001086224
 30
0.0
 10
199.3239761341111
 20
548.0137950300185
 30
0.0
 10
201.8762161354517
 20
542.2462933794372
 30
0.0
 10
204.7840574688675
 20
536.370678855458
 30
0.0
 10
207.7806376502773
 20
530.8231554184108
 30
0.0
 10
210.7471737171915
 20
525.6985353242591
 30
0.0
 10
213.5944002158914
 20
521.0378024560526
 30
0.0
 10
216.2718849762851
 20
516.8371194302684
 30
0.0
 10
218.7389295167812
 20
513.0970338998891
 30
0.0
 10
220.6992976829148
 20
510.2047142660643
 30
0.0
 10
222.1829033737275
 20
508.0531036983754
 30
0.0
 10
223.2704024034809
 20
506.4944148756791
 30
0.0
 10
224.1140633732821
 20
505.2962128237127
 30
0.0
 10
224.653869164196
 20
504.5343151348114
 30
0.0
 10
224.9053769860058
 20
504.1805920124019
 30
0.0
 10
224.87431177128
 20
504.2242873467326
 30
0.0
 10
224.865511786871
 20
504.236665122462
 30
0.0
  0
LINE
  5
A3
330
1F
100
AcDbEntity
  8
0
  6
Continuous
 62
     7
370
    25
100
AcDbLine
 10
-0.0997433777
 20
847.6877963778
 30
0.0
 11
224.9002566223
 21
847.6877963778
 31
0.0
  0
LINE
  5
A4
330
1F
100
AcDbEntity
  8
0
  6
Continuous
 62
     7
370
    25
100
AcDbLine
 10
-0.0997433777
 20
320.6877963778
 30
0.0
 11
224.9002566223
 21
320.6877963778
 31
0.0
  0
LINE
  5
A5
330
1F
100
AcDbEntity
  8
0
  6
Continuous
 62
     7
370
    25
100
AcDbLine
 10
354.4002566223
 20
664.1877963778
 30
0.0
 11
354.4002566223
 21
504.1877963778
 31
0.0
  0
LINE
  5
A6
330
1F
100
AcDbEntity
  8
0
  6
Continuous
 62
     7
370
    25
100
AcDbLine
 10
499.5405530184
 20
-3.1137860013
 30
0.0
 11
1026.5405530184
 21
-3.1137860013
 31
0.0
  0
LINE
  5
A7
330
1F
100
AcDbEntity
  8
0
  6
Continuous
 62
     7
370
    25
100
AcDbLine
 10
1026.5405530184
 20
221.8862139987
 30
0.0
 11
499.5405530184
 21
221.8862139987
 31
0.0
  0
LINE
  5
A8
330
1F
100
AcDbEntity
  8
0
  6
Continuous
 62
     7
370
    25
100
AcDbLine
 10
1026.5405530184
 20
221.8862139987
 30
0.0
 11
1026.5405530184
 21
-3.1137860013
 31
0.0
  0
LINE
  5
A9
330
1F
100
AcDbEntity
  8
0
  6
Continuous
 62
     7
370
    25
100
AcDbLine
 10
499.5405530184
 20
221.8862139987
 30
0.0
 11
499.5405530184
 21
-3.1137860013
 31
0.0
  0
LINE
  5
AA
330
1F
100
AcDbEntity
  8
0
  6
Continuous
 62
     7
370
    25
100
AcDbLine
 10
-148.3809813628
 20
221.8862139987
 30
0.0
 11
-675.3809813628
 21
221.8862139987
 31
0.0
  0
LINE
  5
AB
330
1F
100
AcDbEntity
  8
0
  6
Continuous
 62
     7
370
    25
100
AcDbLine
 10
-675.3809813628
 20
-3.1137860013
 30
0.0
 11
-148.3809813628
 21
-3.1137860013
 31
0.0
  0
CIRCLE
  5
AC
330
1F
100
AcDbEntity
  8
0
  6
Continuous
 62
     7
370
    25
100
AcDbCircle
 10
-411.8809813628
 20
109.3862139987
 30
0.0
 40
65.40000000000003
  0
CIRCLE
  5
AD
330
1F
100
AcDbEntity
  8
0
  6
Continuous
 62
     7
370
    25
100
AcDbCircle
 10
-411.8809813628
 20
109.3862139987
 30
0.0
 40
80.00000000000006
  0
LINE
  5
AE
330
1F
100
AcDbEntity
  8
0
  6
Continuous
 62
     7
370
    25
100
AcDbLine
 10
-675.3809813628
 20
109.3862139987
 30
0.0
 11
-675.3809813628
 21
221.8862139987
 31
0.0
  0
LINE
  5
AF
330
1F
100
AcDbEntity
  8
0
  6
Continuous
 62
     7
370
    25
100
AcDbLine
 10
-675.3809813628
 20
-3.1137860013
 30
0.0
 11
-675.3809813628
 21
109.3862139987
 31
0.0
  0
LINE
  5
B0
330
1F
100
AcDbEntity
  8
0
  6
Continuous
 62
     7
370
    25
100
AcDbLine
 10
-148.3809813628
 20
109.3862139987
 30
0.0
 11
-148.3809813628
 21
221.8862139987
 31
0.0
  0
LINE
  5
B1
330
1F
100
AcDbEntity
  8
0
  6
Continuous
 62
     7
370
    25
100
AcDbLine
 10
-148.3809813628
 20
-3.1137860013
 30
0.0
 11
-148.3809813628
 21
109.3862139987
 31
0.0
  0
INSERT
  5
BD
330
1F
100
AcDbEntity
  8
FORMAT
100
AcDbBlockReference
  2
SW_CENTERMARKSYMBOL_1
 10
-411.8809813628
 20
109.3862139987
 30
0.0
  0
LINE
  5
BE
330
1F
100
AcDbEntity
  8
0
  6
Continuous
 62
     7
370
    25
100
AcDbLine
 10
766.5870241301
 20
-258.683628561
 30
0.0
 11
604.0071745942
 21
-164.8282791912
 31
0.0
  0
LINE
  5
BF
330
1F
100
AcDbEntity
  8
0
  6
Continuous
 62
     7
370
    25
100
AcDbLine
 10
976.6524482795
 20
-379.9518166565
 30
0.0
 11
926.6000279651
 21
-351.0571694488
 31
0.0
  0
LINE
  5
C0
330
1F
100
AcDbEntity
  8
0
  6
Continuous
 62
     7
370
    25
100
AcDbLine
 10
491.5163171727
 20
-359.6892732268
 30
0.0
 11
864.161590858
 21
-574.8128106921
 31
0.0
  0
LINE
  5
C1
330
1F
100
AcDbEntity
  8
0
  6
Continuous
 62
     7
370
    25
100
AcDbLine
 10
842.8337273112
 20
-399.4144255032
 30
0.0
 11
945.2009730787
 21
-340.3190724016
 31
0.0
  0
LINE
  5
C2
330
1F
100
AcDbEntity
  8
0
  6
Continuous
 62
     7
370
    25
100
AcDbLine
 10
865.2074744678
 20
-201.7512544207
 30
0.0
 11
762.8412996132
 21
-260.8459892974
 31
0.0
  0
SPLINE
  5
C3
330
1F
100
AcDbEntity
  8
0
  6
Continuous
 62
     7
370
    25
100
AcDbSpline
210
0.0
220
0.0
230
1.0
 70
     8
 71
     3
 72
    39
 73
    35
 74
     0
 42
0.000000001
 43
0.00000001
 40
0.0
 40
0.0
 40
0.0
 40
0.0
 40
0.0296033997279007
 40
0.0596888562832621
 40
0.0900164939873384
 40
0.1208309900897446
 40
0.1504293462461297
 40
0.1804031819244066
 40
0.2105580638905253
 40
0.2410699892566637
 40
0.2734134879396066
 40
0.3061021425202603
 40
0.3389576244902041
 40
0.3721474384093709
 40
0.4101939058443285
 40
0.448776970160463
 40
0.4876457692736653
 40
0.5271472023277434
 40
0.5530733930105537
 40
0.5793088413988564
 40
0.60571512350677
 40
0.6324887277799057
 40
0.658424559492563
 40
0.6847984799503174
 40
0.7113971309967854
 40
0.7384435045938943
 40
0.7678938243410501
 40
0.7977924478699437
 40
0.8278979498151069
 40
0.8584012526353284
 40
0.8968633123573296
 40
0.9358855672980323
 40
0.9751780896896147
 40
1.0
 40
1.0
 40
1.0
 40
1.0
 10
757.065353114671
 20
-291.2412641787291
 30
0.0
 10
757.0737038292249
 20
-292.855894699882
 30
0.0
 10
757.0905412399771
 20
-296.1114481164995
 30
0.0
 10
757.2282022496103
 20
-301.3636879193427
 30
0.0
 10
757.4527808120005
 20
-306.8858104148514
 30
0.0
 10
757.77103605306
 20
-312.5580637915832
 30
0.0
 10
758.1809816103722
 20
-318.3289991043724
 30
0.0
 10
758.6820542688756
 20
-324.1359045687929
 30
0.0
 10
759.2878456057153
 20
-330.0407679677961
 30
0.0
 10
760.0181584612884
 20
-336.1030062039095
 30
0.0
 10
760.8919658586285
 20
-342.2981988315175
 30
0.0
 10
761.9297891313838
 20
-348.5755967257865
 30
0.0
 10
763.1368624309142
 20
-354.8039565532424
 30
0.0
 10
764.6002643223154
 20
-361.2280304072517
 30
0.0
 10
766.3907116151405
 20
-367.8079379463192
 30
0.0
 10
768.5991177313438
 20
-374.4533039925161
 30
0.0
 10
771.2268174043489
 20
-380.840389958009
 30
0.0
 10
773.985310074686
 20
-386.1608346506967
 30
0.0
 10
776.7593156713024
 20
-390.4944404727645
 30
0.0
 10
779.3950743391543
 20
-393.9426865317786
 30
0.0
 10
782.3355295624452
 20
-397.1182172459988
 30
0.0
 10
785.5472775174808
 20
-399.9311101570956
 30
0.0
 10
789.0287224778517
 20
-402.3597190961208
 30
0.0
 10
792.7496523476354
 20
-404.3775965460317
 30
0.0
 10
796.7421523965936
 20
-405.9920703969513
 30
0.0
 10
801.0730249608318
 20
-407.212436285451
 30
0.0
 10
805.7240950124225
 20
-407.9937178554534
 30
0.0
 10
810.6376032573862
 20
-408.2987257808967
 30
0.0
 10
815.650771498635
 20
-408.1267122786109
 30
0.0
 10
821.1271128187424
 20
-407.4449861201092
 30
0.0
 10
827.0282605432328
 20
-406.1427591115392
 30
0.0
 10
833.2267452276029
 20
-404.0862285568533
 30
0.0
 10
838.5379779487481
 20
-401.8289072168599
 30
0.0
 10
841.6072881701336
 20
-400.0399382328209
 30
0.0
 10
842.7955719904729
 20
-399.3473386760832
 30
0.0
  0
SPLINE
  5
C4
330
1F
100
AcDbEntity
  8
0
  6
Continuous
 62
     7
370
    25
100
AcDbSpline
210
0.0
220
0.0
230
1.0
 70
     8
 71
     3
 72
    17
 73
    13
 74
     0
 42
0.000000001
 43
0.00000001
 40
0.0
 40
0.0
 40
0.0
 40
0.0
 40
0.0469644712078064
 40
0.1525121627521026
 40
0.27051172143915
 40
0.3894931405966459
 40
0.5119487325931037
 40
0.6357970297624314
 40
0.7251028557413179
 40
0.815764167320415
 40
0.9071392556275014
 40
1.0
 40
1.0
 40
1.0
 40
1.0
 10
762.8717354930408
 20
-260.8989898340541
 30
0.0
 10
762.6691711647227
 20
-261.0001369163201
 30
0.0
 10
762.0113648908795
 20
-261.3286013890529
 30
0.0
 10
761.0564522373211
 20
-262.4342329827886
 30
0.0
 10
759.9931001697204
 20
-264.2993610110922
 30
0.0
 10
759.0825561032569
 20
-266.9538670234699
 30
0.0
 10
758.3361835707894
 20
-270.3554446733899
 30
0.0
 10
757.8125171732677
 20
-274.1644684460139
 30
0.0
 10
757.4590713259128
 20
-278.1364899297568
 30
0.0
 10
757.234867026924
 20
-282.0766749506158
 30
0.0
 10
757.0921203797282
 20
-286.4219401848077
 30
0.0
 10
757.0743233740097
 20
-289.6262098961796
 30
0.0
 10
757.065353114671
 20
-291.2412641787291
 30
0.0
  0
LWPOLYLINE
  5
C5
330
1F
100
AcDbEntity
  8
0
  6
Continuous
 62
     7
370
    25
100
AcDbPolyline
 90
      113
 70
   128
 43
0.0
 10
627.3112587669
 20
-216.335819919
 10
627.1861126679
 20
-211.2573867668
 10
626.8110681268
 20
-206.3394228545
 10
626.1873051725
 20
-201.597401916
 10
625.316786394
 20
-197.0462441036
 10
624.2022507655
 20
-192.7002690435
 10
622.8472050283
 20
-188.5731507811
 10
621.2559126577
 20
-184.6778747574
 10
619.4333804483
 20
-181.0266969518
 10
617.3853427605
 20
-177.6311053205
 10
615.1182434787
 20
-174.5017836511
 10
612.639215736
 20
-171.6485779472
 10
609.9560594708
 20
-169.0804654496
 10
607.0772168853
 20
-166.8055263903
 10
604.0117458835
 20
-164.8309185692
 10
600.7692915711
 20
-163.1628548331
 10
597.3600559091
 20
-161.8065835276
 10
593.7947656142
 20
-160.766371984
 10
590.0846384086
 20
-160.0454930927
 10
586.2413477252
 20
-159.6462150053
 10
582.2769859783
 20
-159.5697939985
 10
578.2040265167
 20
-159.8164705209
 10
574.0352843776
 20
-160.3854684371
 10
569.7838759662
 20
-161.274997469
 10
565.4631777861
 20
-162.4822588292
 10
561.0867843523
 20
-164.0034540269
 10
556.6684654177
 20
-165.8337968191
 10
552.2221226483
 20
-167.9675282703
 10
547.7617458835
 20
-170.3979348719
 10
543.3013691186
 20
-173.1173696656
 10
538.8550263492
 20
-176.1172763034
 10
534.4367074146
 20
-179.3882159692
 10
530.0603139808
 20
-182.9198970766
 10
525.7396158008
 20
-186.7012076504
 10
521.4882073893
 20
-190.7202502885
 10
517.3194652502
 20
-194.9643795958
 10
513.2465057886
 20
-199.4202419714
 10
509.2821440417
 20
-204.0738176237
 10
505.4388533583
 20
-208.9104646821
 10
501.7287261527
 20
-213.9149652655
 10
498.1634358578
 20
-219.0715733637
 10
494.7542001958
 20
-224.3640643797
 10
491.5117458835
 20
-229.7757861788
 10
488.4462748816
 20
-235.2897114822
 10
485.5674322961
 20
-240.8884914407
 10
482.8842760309
 20
-246.5545102214
 10
480.4052482882
 20
-252.2699404328
 10
478.1381490064
 20
-258.0167992172
 10
476.0901113186
 20
-263.7770048305
 10
474.2675791092
 20
-269.5324335349
 10
472.6762867386
 20
-275.2649766224
 10
471.3212410014
 20
-280.9565973916
 10
470.2067053729
 20
-286.5893878977
 10
469.3361865944
 20
-292.1456252981
 10
468.7124236401
 20
-297.6078276141
 10
468.337379099
 20
-302.9588087365
 10
468.212233
 20
-308.1817324991
 10
468.337379099
 20
-313.2601656512
 10
468.7124236401
 20
-318.1781295635
 10
469.3361865944
 20
-322.920150502
 10
470.2067053729
 20
-327.4713083144
 10
471.3212410014
 20
-331.8172833745
 10
472.6762867386
 20
-335.9444016369
 10
474.2675791092
 20
-339.8396776606
 10
476.0901113186
 20
-343.4908554662
 10
478.1381490064
 20
-346.8864470975
 10
480.4052482882
 20
-350.0157687669
 10
482.8842760309
 20
-352.8689744708
 10
485.5674322961
 20
-355.4370869684
 10
488.4462748816
 20
-357.7120260278
 10
491.5117458835
 20
-359.6866338488
 10
494.7542001958
 20
-361.3546975849
 10
498.1634358578
 20
-362.7109688904
 10
501.7287261527
 20
-363.751180434
 10
505.4388533583
 20
-364.4720593254
 10
509.2821440417
 20
-364.8713374127
 10
513.2465057886
 20
-364.9477584196
 10
517.3194652502
 20
-364.7010818971
 10
521.4882073893
 20
-364.1320839809
 10
525.7396158008
 20
-363.242554949
 10
530.0603139809
 20
-362.0352935888
 10
534.4367074146
 20
-360.5140983911
 10
538.8550263492
 20
-358.6837555989
 10
543.3013691186
 20
-356.5500241478
 10
547.7617458835
 20
-354.1196175462
 10
552.2221226483
 20
-351.4001827525
 10
556.6684654177
 20
-348.4002761147
 10
561.0867843523
 20
-345.1293364489
 10
565.4631777861
 20
-341.5976553414
 10
569.7838759662
 20
-337.8163447676
 10
574.0352843776
 20
-333.7973021296
 10
578.2040265167
 20
-329.5531728223
 10
582.2769859783
 20
-325.0973104467
 10
586.2413477252
 20
-320.4437347943
 10
590.0846384086
 20
-315.6070877359
 10
593.7947656142
 20
-310.6025871525
 10
597.3600559091
 20
-305.4459790544
 10
600.7692915711
 20
-300.1534880383
 10
604.0117458835
 20
-294.7417662392
 10
607.0772168853
 20
-289.2278409359
 10
609.9560594708
 20
-283.6290609773
 10
612.639215736
 20
-277.9630421967
 10
615.1182434787
 20
-272.2476119852
 10
617.3853427605
 20
-266.5007532009
 10
619.4333804483
 20
-260.7405475875
 10
621.2559126577
 20
-254.9851188831
 10
622.8472050283
 20
-249.2525757956
 10
624.2022507655
 20
-243.5609550265
 10
625.316786394
 20
-237.9281645203
 10
626.1873051725
 20
-232.37192712
 10
626.8110681268
 20
-226.909724804
 10
627.1861126679
 20
-221.5587436815
 10
627.3112587669
 20
-216.335819919
  0
LWPOLYLINE
  5
C6
330
1F
100
AcDbEntity
  8
0
  6
Continuous
 62
     7
370
    25
100
AcDbPolyline
 90
       16
 70
   128
 43
0.0
 10
999.9565324523
 20
-431.4593573843
 10
999.8313863532
 20
-426.3809242321
 10
999.4563418121
 20
-421.4629603198
 10
998.8325788578
 20
-416.7209393813
 10
997.9620600793
 20
-412.1697815689
 10
996.8475244508
 20
-407.8238065088
 10
995.4924787136
 20
-403.6966882464
 10
993.9011863431
 20
-399.8014122227
 10
992.0786541336
 20
-396.1502344171
 10
990.0306164458
 20
-392.7546427858
 10
987.763517164
 20
-389.6253211164
 10
985.2844894213
 20
-386.7721154125
 10
982.6013331561
 20
-384.2040029149
 10
979.7224905706
 20
-381.9290638556
 10
976.6570195688
 20
-379.9544560345
 10
976.6524482795
 20
-379.9518166565
  0
LWPOLYLINE
  5
C7
330
1F
100
AcDbEntity
  8
0
  6
Continuous
 62
     7
370
    25
100
AcDbPolyline
 90
       43
 70
   128
 43
0.0
 10
864.161590858
 20
-574.8128106921
 10
867.3994738811
 20
-576.4782350502
 10
870.8087095431
 20
-577.8345063557
 10
874.373999838
 20
-578.8747178993
 10
878.0841270436
 20
-579.5955967906
 10
881.927417727
 20
-579.994874878
 10
885.8917794739
 20
-580.0712958848
 10
889.9647389355
 20
-579.8246193624
 10
894.1334810746
 20
-579.2556214462
 10
898.3848894861
 20
-578.3660924143
 10
902.7055876662
 20
-577.1588310541
 10
907.0819810999
 20
-575.6376358564
 10
911.5003000345
 20
-573.8072930642
 10
915.9466428039
 20
-571.673561613
 10
920.4070195688
 20
-569.2431550115
 10
924.8673963336
 20
-566.5237202178
 10
929.313739103
 20
-563.52381358
 10
933.7320580376
 20
-560.2528739142
 10
938.1084514714
 20
-556.7211928067
 10
942.4291496515
 20
-552.9398822329
 10
946.6805580629
 20
-548.9208395949
 10
950.849300202
 20
-544.6767102875
 10
954.9222596636
 20
-540.2208479119
 10
958.8866214105
 20
-535.5672722596
 10
962.7299120939
 20
-530.7306252012
 10
966.4400392995
 20
-525.7261246178
 10
970.0053295944
 20
-520.5695165197
 10
973.4145652564
 20
-515.2770255036
 10
976.6570195688
 20
-509.8653037045
 10
979.7224905706
 20
-504.3513784012
 10
982.6013331561
 20
-498.7525984426
 10
985.2844894213
 20
-493.086579662
 10
987.763517164
 20
-487.3711494505
 10
990.0306164458
 20
-481.6242906661
 10
992.0786541336
 20
-475.8640850528
 10
993.9011863431
 20
-470.1086563484
 10
995.4924787136
 20
-464.3761132609
 10
996.8475244508
 20
-458.6844924918
 10
997.9620600793
 20
-453.0517019856
 10
998.8325788578
 20
-447.4954645853
 10
999.4563418121
 20
-442.0332622692
 10
999.8313863532
 20
-436.6822811468
 10
999.9565324523
 20
-431.4593573843
  0
LWPOLYLINE
  5
C8
330
1F
100
AcDbEntity
  8
0
  6
Continuous
 62
     7
370
    25
100
AcDbPolyline
 90
      102
 70
   128
 43
0.0
 10
612.8155697526
 20
-224.7040030652
 10
612.6897294493
 20
-220.1063568735
 10
612.3126953908
 20
-215.6717902034
 10
611.6859262489
 20
-211.4174595318
 10
610.8118468716
 20
-207.3598240376
 10
609.693838902
 20
-203.5145819244
 10
608.336227696
 20
-199.8966096867
 10
606.7442655874
 20
-196.5199045564
 10
604.9241115685
 20
-193.3975303496
 10
602.8828074615
 20
-190.5415669256
 10
600.6282506755
 20
-187.963063452
 10
598.1691636527
 20
-185.6719956578
 10
595.515060123
 20
-183.6772272392
 10
592.6762082975
 20
-181.9864755679
 10
589.6635911422
 20
-180.6062818334
 10
586.4888638879
 20
-179.5419857373
 10
583.1643089373
 20
-178.7977048343
 10
579.7027883479
 20
-178.3763186027
 10
576.1176940703
 20
-178.2794573041
 10
572.4228961377
 20
-178.5074956758
 10
568.6326890057
 20
-179.0595514818
 10
564.7617362493
 20
-179.9334889254
 10
560.8250138327
 20
-181.1259269123
 10
556.8377521702
 20
-182.6322521318
 10
552.8153772025
 20
-184.4466369041
 10
548.773450717
 20
-186.562061727
 10
544.727610142
 20
-188.9703424329
 10
540.6935080488
 20
-191.6621618515
 10
536.6867515946
 20
-194.6271058564
 10
532.7228421419
 20
-197.8537036553
 10
528.8171152861
 20
-201.3294721682
 10
524.9846815258
 20
-205.0409643218
 10
521.2403678027
 20
-208.973821074
 10
517.5986601391
 20
-213.1128269662
 10
514.0736475946
 20
-217.4419689885
 10
510.6789677579
 20
-221.9444985315
 10
507.4277539857
 20
-226.6029961832
 10
504.3325845927
 20
-231.399439121
 10
501.4054341878
 20
-236.315270839
 10
498.6576273474
 20
-241.3314729393
 10
496.0997948022
 20
-246.4286387105
 10
493.7418323096
 20
-251.5870482085
 10
491.5928623683
 20
-256.7867445488
 10
489.6611989255
 20
-262.0076111167
 10
487.9543152119
 20
-267.2294493934
 10
486.478814829
 20
-272.4320571013
 10
485.240406201
 20
-277.5953063617
 10
484.2438804904
 20
-282.6992215664
 10
483.4930930616
 20
-287.7240566589
 10
482.9909485652
 20
-292.6503715284
 10
482.7393897009
 20
-297.4591072196
 10
482.7393897009
 20
-302.1316596685
 10
482.9909485652
 20
-306.6499516773
 10
483.4930930616
 20
-310.9965028519
 10
484.2438804904
 20
-315.1544972303
 10
485.240406201
 20
-319.1078483399
 10
486.478814829
 20
-322.8412614334
 10
487.9543152119
 20
-326.3402926608
 10
489.6611989255
 20
-329.5914049499
 10
491.5928623683
 20
-332.5820203789
 10
493.7418323096
 20
-335.3005688378
 10
496.0997948022
 20
-337.7365327906
 10
498.6576273474
 20
-339.880487966
 10
501.4054341878
 20
-341.724139818
 10
504.3325845927
 20
-343.2603556158
 10
507.4277539857
 20
-344.4831920387
 10
510.6789677579
 20
-345.3879181703
 10
514.0736475946
 20
-345.9710338009
 10
517.5986601391
 20
-346.2302829694
 10
521.2403678027
 20
-346.1646626912
 10
524.9846815258
 20
-345.7744268384
 10
528.8171152861
 20
-345.0610851576
 10
532.7228421419
 20
-344.0273974292
 10
536.6867515946
 20
-342.6773627904
 10
540.6935080488
 20
-341.0162042627
 10
544.727610142
 20
-339.0503485459
 10
548.773450717
 20
-336.7874011538
 10
552.8153772025
 20
-334.2361169902
 10
556.8377521702
 20
-331.406366478
 10
560.8250138327
 20
-328.3090973722
 10
564.7617362493
 20
-324.9562924051
 10
568.6326890057
 20
-321.360922928
 10
572.4228961377
 20
-317.5368987269
 10
576.1176940703
 20
-313.4990142084
 10
579.7027883479
 20
-309.2628911634
 10
583.1643089373
 20
-304.8449183291
 10
586.4888638879
 20
-300.2621879839
 10
589.6635911422
 20
-295.5324298214
 10
592.6762082975
 20
-290.6739423571
 10
595.515060123
 20
-285.7055221351
 10
598.1691636527
 20
-280.646391008
 10
600.6282506755
 20
-275.5161217714
 10
602.8828074615
 20
-270.3345624402
 10
604.9241115685
 20
-265.121759461
 10
606.7442655874
 20
-259.8978801558
 10
608.336227696
 20
-254.6831346987
 10
609.693838902
 20
-249.497697927
 10
610.8118468716
 20
-244.3616312881
 10
611.6859262489
 20
-239.294805226
 10
612.3126953908
 20
-234.3168223065
 10
612.6897294493
 20
-229.4469413785
 10
612.8155697526
 20
-224.7040030652
  0
LWPOLYLINE
  5
C9
330
1F
100
AcDbEntity
  8
0
  6
Continuous
 62
     7
370
    25
100
AcDbPolyline
 90
       86
 70
   128
 43
0.0
 10
951.4490072629
 20
-297.7317086677
 10
951.3227207773
 20
-293.714949412
 10
950.9445510538
 20
-289.5743210298
 10
950.316563524
 20
-285.3324381975
 10
949.4421880382
 20
-281.0124686083
 10
948.3262001321
 20
-276.6380064379
 10
946.9746949446
 20
-272.2329434818
 10
945.3950539284
 20
-267.8213386663
 10
943.5959045348
 20
-263.4272866471
 10
941.5870730941
 20
-259.0747862126
 10
939.379531147
 20
-254.7876092108
 10
936.985335522
 20
-250.5891707159
 10
934.4175624854
 20
-246.502401143
 10
931.6902363232
 20
-242.5496210104
 10
928.8182527449
 20
-238.7524190323
 10
925.8172975291
 20
-235.1315342094
 10
922.7037608525
 20
-231.7067425587
 10
919.4946477727
 20
-228.4967491048
 10
916.2074853526
 20
-225.5190857187
 10
912.8602269333
 20
-222.7900153653
 10
909.4711540796
 20
-220.3244432805
 10
906.0587767322
 20
-218.1358355639
 10
902.6417321129
 20
-216.2361456321
 10
899.2386829345
 20
-214.6357489327
 10
895.8682154714
 20
-213.3433862774
 10
892.5487380483
 20
-212.366116103
 10
889.2983804995
 20
-211.7092759202
 10
886.1348951511
 20
-211.3764531624
 10
883.0755598629
 20
-211.3694655919
 10
880.1370836634
 20
-211.6883513726
 10
877.3355154906
 20
-212.3313688609
 10
874.6861565383
 20
-213.2950061182
 10
872.2034766865
 20
-214.574000092
 10
869.9010354716
 20
-216.1613653607
 10
867.791408029
 20
-218.0484322857
 10
865.8861164123
 20
-220.2248943618
 10
864.1955666636
 20
-222.6788645079
 10
862.7289919794
 20
-225.39693999
 10
861.4944022821
 20
-228.3642756224
 10
860.4985404724
 20
-231.5646648468
 10
859.7468456023
 20
-234.9806282472
 10
859.2434231684
 20
-238.5935090159
 10
858.9910226895
 20
-242.3835748511
 10
858.9910226895
 20
-246.3301257275
 10
859.2434231684
 20
-250.4116069527
 10
859.7468456023
 20
-254.6057268916
 10
860.4985404724
 20
-258.8895787155
 10
861.4944022821
 20
-263.2397655112
 10
862.7289919794
 20
-267.6325280671
 10
864.1955666636
 20
-272.0438746373
 10
865.8861164123
 20
-276.4497119766
 10
867.791408029
 20
-280.8259769292
 10
869.9010354716
 20
-285.1487678535
 10
872.2034766865
 20
-289.3944751646
 10
874.6861565383
 20
-293.5399102814
 10
877.3355154906
 20
-297.5624322747
 10
880.1370836634
 20
-301.4400715245
 10
883.0755598629
 20
-305.1516497097
 10
886.1348951511
 20
-308.6768954773
 10
889.2983804995
 20
-311.9965551575
 10
892.5487380483
 20
-315.0924979202
 10
895.8682154714
 20
-317.9478147997
 10
899.2386829345
 20
-320.5469110452
 10
902.6417321129
 20
-322.8755912944
 10
906.0587767322
 20
-324.9211371034
 10
909.4711540796
 20
-326.6723764101
 10
912.8602269333
 20
-328.1197445529
 10
916.2074853526
 20
-329.2553365087
 10
919.4946477727
 20
-330.0729500682
 10
922.7037608525
 20
-330.5681197096
 10
925.8172975291
 20
-330.7381409881
 10
928.8182527449
 20
-330.5820853063
 10
931.6902363232
 20
-330.1008049863
 10
934.4175624854
 20
-329.2969286143
 10
936.985335522
 20
-328.1748466843
 10
939.379531147
 20
-326.7406876186
 10
941.5870730942
 20
-325.0022842969
 10
943.5959045348
 20
-322.9691312751
 10
945.3950539284
 20
-320.6523329301
 10
946.9746949446
 20
-318.0645428109
 10
948.3262001321
 20
-315.21989453
 10
949.4421880382
 20
-312.1339245697
 10
950.316563524
 20
-308.8234874278
 10
950.9445510538
 20
-305.3066635641
 10
951.3227207773
 20
-301.6026606509
 10
951.4490072629
 20
-297.7317086677
  0
LWPOLYLINE
  5
CA
330
1F
100
AcDbEntity
  8
0
  6
Continuous
 62
     7
370
    25
100
AcDbPolyline
 90
       95
 70
   128
 43
0.0
 10
961.7727662682
 20
-303.691487884
 10
961.6464418467
 20
-299.2554494369
 10
961.2680327777
 20
-294.6933723417
 10
960.639229128
 20
-290.0256319424
 10
959.7628392874
 20
-285.2730755006
 10
958.6427774255
 20
-280.4569290871
 10
957.2840460107
 20
-275.5987027809
 10
955.6927134671
 20
-270.7200946001
 10
953.8758870723
 20
-265.842893593
 10
951.841681214
 20
-260.9888825235
 10
949.5991811494
 20
-256.1797405831
 10
947.158402428
 20
-251.4369465673
 10
944.5302461603
 20
-246.7816829455
 10
941.7264503301
 20
-242.234741255
 10
938.7595373701
 20
-237.8164292413
 10
935.6427582339
 20
-233.5464801584
 10
932.3900332138
 20
-229.4439646354
 10
929.0158897693
 20
-225.5272055025
 10
925.535397644
 20
-221.8136959569
 10
921.9641015608
 20
-218.3200214336
 10
918.3179517948
 20
-215.0617855312
 10
914.6132329361
 20
-212.0535403222
 10
910.8664911584
 20
-209.3087213599
 10
907.0944603201
 20
-206.8395876721
 10
903.3139872264
 20
-204.6571670092
 10
899.5419563881
 20
-202.7712065918
 10
895.7952146104
 20
-201.1901295769
 10
892.0904957517
 20
-199.9209974383
 10
888.4443459857
 20
-198.969478428
 10
884.8730499025
 20
-198.3398222612
 10
881.3925577772
 20
-198.0348411349
 10
878.0184143327
 20
-198.0558971691
 10
874.7656893126
 20
-198.4028963223
 10
871.6489101764
 20
-199.074288812
 10
868.6819972164
 20
-200.0670760365
 10
865.8782013862
 20
-201.376823967
 10
863.2500451185
 20
-202.9976829512
 10
860.8092663971
 20
-204.9224138395
 10
858.5667663325
 20
-207.1424203165
 10
856.5325604742
 20
-209.6477872944
 10
854.7157340794
 20
-212.427325196
 10
853.1244015358
 20
-215.4686199304
 10
851.765670121
 20
-218.7580883369
 10
850.6456082591
 20
-222.2810388512
 10
849.7692184185
 20
-226.021737121
 10
849.1404147688
 20
-229.9634762798
 10
848.7620056998
 20
-234.0886515636
 10
848.6356812783
 20
-238.3788389382
 10
848.7620056998
 20
-242.8148773854
 10
849.1404147688
 20
-247.3769544805
 10
849.7692184185
 20
-252.0446948799
 10
850.6456082591
 20
-256.7972513217
 10
851.765670121
 20
-261.6133977352
 10
853.1244015359
 20
-266.4716240413
 10
854.7157340794
 20
-271.3502322222
 10
856.5325604742
 20
-276.2274332292
 10
858.5667663325
 20
-281.0814442988
 10
860.8092663971
 20
-285.8905862391
 10
863.2500451185
 20
-290.6333802549
 10
865.8782013862
 20
-295.2886438768
 10
868.6819972164
 20
-299.8355855672
 10
871.6489101764
 20
-304.2538975809
 10
874.7656893126
 20
-308.5238466639
 10
878.0184143327
 20
-312.6263621869
 10
881.3925577772
 20
-316.5431213197
 10
884.8730499025
 20
-320.2566308653
 10
888.4443459857
 20
-323.7503053886
 10
892.0904957517
 20
-327.008541291
 10
895.7952146104
 20
-330.0167865
 10
899.5419563881
 20
-332.7616054624
 10
903.3139872264
 20
-335.2307391502
 10
907.0944603201
 20
-337.413159813
 10
910.8664911584
 20
-339.2991202304
 10
914.6132329361
 20
-340.8801972453
 10
918.3179517948
 20
-342.149329384
 10
921.9641015608
 20
-343.1008483942
 10
925.535397644
 20
-343.7305045611
 10
929.0158897693
 20
-344.0354856873
 10
932.3900332138
 20
-344.0144296531
 10
935.6427582339
 20
-343.6674305
 10
938.7595373701
 20
-342.9960380102
 10
941.7264503301
 20
-342.0032507857
 10
944.5302461603
 20
-340.6935028553
 10
947.158402428
 20
-339.072643871
 10
949.5991811494
 20
-337.1479129827
 10
951.841681214
 20
-334.9279065057
 10
953.8758870723
 20
-332.4225395278
 10
955.6927134671
 20
-329.6430016262
 10
957.2840460107
 20
-326.6017068918
 10
958.6427774255
 20
-323.3122384853
 10
959.7628392874
 20
-319.789287971
 10
960.639229128
 20
-316.0485897013
 10
961.2680327777
 20
-312.1068505425
 10
961.6464418467
 20
-307.9816752587
 10
961.7727662682
 20
-303.691487884
  0
ENDSEC
  0
SECTION
  2
OBJECTS
  0
DICTIONARY
  5
C
330
0
100
AcDbDictionary
281
     1
  3
ACAD_GROUP
350
D
  3
ACAD_LAYOUT
350
1A
  3
ACAD_MLINESTYLE
350
17
  3
ACAD_PLOTSETTINGS
350
19
  3
ACAD_PLOTSTYLENAME
350
E
  3
ACAD_SCALELIST
350
47
  0
DICTIONARY
  5
D
102
{ACAD_REACTORS
330
C
102
}
330
C
100
AcDbDictionary
281
     1
  0
DICTIONARY
  5
1A
102
{ACAD_REACTORS
330
C
102
}
330
C
100
AcDbDictionary
281
     1
  3
Layout1
350
1E
  3
Layout2
350
26
  3
Model
350
22
  0
DICTIONARY
  5
17
102
{ACAD_REACTORS
330
C
102
}
330
C
100
AcDbDictionary
281
     1
  3
Standard
350
18
  0
DICTIONARY
  5
19
102
{ACAD_REACTORS
330
C
102
}
330
C
100
AcDbDictionary
281
     1
  0
ACDBDICTIONARYWDFLT
  5
E
102
{ACAD_REACTORS
330
C
102
}
330
C
100
AcDbDictionary
281
     1
  3
Normal
350
F
100
AcDbDictionaryWithDefault
340
F
  0
DICTIONARY
  5
47
102
{ACAD_REACTORS
330
C
102
}
330
C
100
AcDbDictionary
281
     1
  3
A0
350
48
  3
A1
350
49
  3
A2
350
4A
  3
A3
350
4B
  3
A4
350
4C
  3
A5
350
4D
  3
A6
350
4E
  3
A7
350
4F
  3
A8
350
50
  3
A9
350
51
  3
B0
350
52
  3
B1
350
53
  3
B2
350
54
  3
B3
350
55
  3
B4
350
56
  3
B5
350
57
  3
B6
350
58
  3
B7
350
59
  3
B8
350
5A
  3
B9
350
5B
  3
C0
350
5C
  3
C1
350
5D
  3
C2
350
5E
  3
C3
350
5F
  3
C4
350
60
  3
C5
350
61
  3
C6
350
62
  3
C7
350
63
  3
C8
350
64
  3
C9
350
65
  3
D0
350
66
  3
D1
350
67
  3
D2
350
68
  0
LAYOUT
  5
1E
102
{ACAD_REACTORS
330
1A
102
}
330
1A
100
AcDbPlotSettings
  1

  2
none_device
  4

  6

 40
0.0
 41
0.0
 42
0.0
 43
0.0
 44
0.0
 45
0.0
 46
0.0
 47
0.0
 48
0.0
 49
0.0
140
0.0
141
0.0
142
1.0
143
1.0
 70
   688
 72
     1
 73
     0
 74
     5
  7

 75
    16
147
1.0
148
0.0
149
0.0
100
AcDbLayout
  1
Layout1
 70
     1
 71
     1
 10
0.0
 20
0.0
 11
420.0
 21
297.0
 12
0.0
 22
0.0
 32
0.0
 14
1.0000000000E+20
 24
1.0000000000E+20
 34
1.0000000000E+20
 15
-1.0000000000E+20
 25
-1.0000000000E+20
 35
-1.0000000000E+20
146
0.0
 13
0.0
 23
0.0
 33
0.0
 16
1.0
 26
0.0
 36
0.0
 17
0.0
 27
1.0
 37
0.0
 76
     0
330
1B
  0
LAYOUT
  5
26
102
{ACAD_REACTORS
330
1A
102
}
330
1A
100
AcDbPlotSettings
  1

  2
none_device
  4

  6

 40
0.0
 41
0.0
 42
0.0
 43
0.0
 44
0.0
 45
0.0
 46
0.0
 47
0.0
 48
0.0
 49
0.0
140
0.0
141
0.0
142
1.0
143
1.0
 70
   688
 72
     1
 73
     0
 74
     5
  7

 75
    16
147
1.0
148
0.0
149
0.0
100
AcDbLayout
  1
Layout2
 70
     1
 71
     2
 10
0.0
 20
0.0
 11
0.0
 21
0.0
 12
0.0
 22
0.0
 32
0.0
 14
0.0
 24
0.0
 34
0.0
 15
0.0
 25
0.0
 35
0.0
146
0.0
 13
0.0
 23
0.0
 33
0.0
 16
1.0
 26
0.0
 36
0.0
 17
0.0
 27
1.0
 37
0.0
 76
     0
330
23
  0
LAYOUT
  5
22
102
{ACAD_REACTORS
330
1A
102
}
330
1A
100
AcDbPlotSettings
  1

  2
none_device
  4
Letter_(8.50_x_11.00_Inches)
  6

 40
6.35
 41
6.35
 42
6.35000508
 43
6.35000508
 44
215.9
 45
279.4
 46
0.0
 47
0.0
 48
0.0
 49
0.0
140
0.0
141
0.0
142
1.0
143
1.0
 70
  1712
 72
     1
 73
     0
 74
     0
  7

 75
     0
147
1.0
148
0.0
149
0.0
100
AcDbLayout
  1
Model
 70
     1
 71
     0
 10
0.0
 20
0.0
 11
279.4
 21
215.9
 12
0.0
 22
0.0
 32
0.0
 14
0.0
 24
0.0
 34
0.0
 15
279.4
 25
215.9
 35
0.0
146
0.0
 13
0.0
 23
0.0
 33
0.0
 16
1.0
 26
0.0
 36
0.0
 17
0.0
 27
1.0
 37
0.0
 76
     0
330
1F
331
29
  0
MLINESTYLE
  5
18
102
{ACAD_REACTORS
330
17
102
}
330
17
100
AcDbMlineStyle
  2
Standard
 70
     0
  3

 62
   256
 51
90.0
 52
90.0
 71
     2
 49
0.5
 62
   256
  6
BYLAYER
 49
-0.5
 62
   256
  6
BYLAYER
  0
ACDBPLACEHOLDER
  5
F
102
{ACAD_REACTORS
330
E
102
}
330
E
  0
SCALE
  5
48
102
{ACAD_REACTORS
330
47
102
}
330
47
100
AcDbScale
 70
     0
300
1:1
140
1.0
141
1.0
290
     1
  0
SCALE
  5
49
102
{ACAD_REACTORS
330
47
102
}
330
47
100
AcDbScale
 70
     0
300
1:2
140
1.0
141
2.0
290
     0
  0
SCALE
  5
4A
102
{ACAD_REACTORS
330
47
102
}
330
47
100
AcDbScale
 70
     0
300
1:4
140
1.0
141
4.0
290
     0
  0
SCALE
  5
4B
102
{ACAD_REACTORS
330
47
102
}
330
47
100
AcDbScale
 70
     0
300
1:5
140
1.0
141
5.0
290
     0
  0
SCALE
  5
4C
102
{ACAD_REACTORS
330
47
102
}
330
47
100
AcDbScale
 70
     0
300
1:8
140
1.0
141
8.0
290
     0
  0
SCALE
  5
4D
102
{ACAD_REACTORS
330
47
102
}
330
47
100
AcDbScale
 70
     0
300
1:10
140
1.0
141
10.0
290
     0
  0
SCALE
  5
4E
102
{ACAD_REACTORS
330
47
102
}
330
47
100
AcDbScale
 70
     0
300
1:16
140
1.0
141
16.0
290
     0
  0
SCALE
  5
4F
102
{ACAD_REACTORS
330
47
102
}
330
47
100
AcDbScale
 70
     0
300
1:20
140
1.0
141
20.0
290
     0
  0
SCALE
  5
50
102
{ACAD_REACTORS
330
47
102
}
330
47
100
AcDbScale
 70
     0
300
1:30
140
1.0
141
30.0
290
     0
  0
SCALE
  5
51
102
{ACAD_REACTORS
330
47
102
}
330
47
100
AcDbScale
 70
     0
300
1:40
140
1.0
141
40.0
290
     0
  0
SCALE
  5
52
102
{ACAD_REACTORS
330
47
102
}
330
47
100
AcDbScale
 70
     0
300
1:50
140
1.0
141
50.0
290
     0
  0
SCALE
  5
53
102
{ACAD_REACTORS
330
47
102
}
330
47
100
AcDbScale
 70
     0
300
1:100
140
1.0
141
100.0
290
     0
  0
SCALE
  5
54
102
{ACAD_REACTORS
330
47
102
}
330
47
100
AcDbScale
 70
     0
300
2:1
140
2.0
141
1.0
290
     0
  0
SCALE
  5
55
102
{ACAD_REACTORS
330
47
102
}
330
47
100
AcDbScale
 70
     0
300
4:1
140
4.0
141
1.0
290
     0
  0
SCALE
  5
56
102
{ACAD_REACTORS
330
47
102
}
330
47
100
AcDbScale
 70
     0
300
8:1
140
8.0
141
1.0
290
     0
  0
SCALE
  5
57
102
{ACAD_REACTORS
330
47
102
}
330
47
100
AcDbScale
 70
     0
300
10:1
140
10.0
141
1.0
290
     0
  0
SCALE
  5
58
102
{ACAD_REACTORS
330
47
102
}
330
47
100
AcDbScale
 70
     0
300
100:1
140
100.0
141
1.0
290
     0
  0
SCALE
  5
59
102
{ACAD_REACTORS
330
47
102
}
330
47
100
AcDbScale
 70
     0
300
1/128" = 1'-0"
140
0.0078125
141
12.0
290
     0
  0
SCALE
  5
5A
102
{ACAD_REACTORS
330
47
102
}
330
47
100
AcDbScale
 70
     0
300
1/64" = 1'-0"
140
0.015625
141
12.0
290
     0
  0
SCALE
  5
5B
102
{ACAD_REACTORS
330
47
102
}
330
47
100
AcDbScale
 70
     0
300
1/32" = 1'-0"
140
0.03125
141
12.0
290
     0
  0
SCALE
  5
5C
102
{ACAD_REACTORS
330
47
102
}
330
47
100
AcDbScale
 70
     0
300
1/16" = 1'-0"
140
0.0625
141
12.0
290
     0
  0
SCALE
  5
5D
102
{ACAD_REACTORS
330
47
102
}
330
47
100
AcDbScale
 70
     0
300
3/32" = 1'-0"
140
0.09375
141
12.0
290
     0
  0
SCALE
  5
5E
102
{ACAD_REACTORS
330
47
102
}
330
47
100
AcDbScale
 70
     0
300
1/8" = 1'-0"
140
0.125
141
12.0
290
     0
  0
SCALE
  5
5F
102
{ACAD_REACTORS
330
47
102
}
330
47
100
AcDbScale
 70
     0
300
3/16" = 1'-0"
140
0.1875
141
12.0
290
     0
  0
SCALE
  5
60
102
{ACAD_REACTORS
330
47
102
}
330
47
100
AcDbScale
 70
     0
300
1/4" = 1'-0"
140
0.25
141
12.0
290
     0
  0
SCALE
  5
61
102
{ACAD_REACTORS
330
47
102
}
330
47
100
AcDbScale
 70
     0
300
3/8" = 1'-0"
140
0.375
141
12.0
290
     0
  0
SCALE
  5
62
102
{ACAD_REACTORS
330
47
102
}
330
47
100
AcDbScale
 70
     0
300
1/2" = 1'-0"
140
0.5
141
12.0
290
     0
  0
SCALE
  5
63
102
{ACAD_REACTORS
330
47
102
}
330
47
100
AcDbScale
 70
     0
300
3/4" = 1'-0"
140
0.75
141
12.0
290
     0
  0
SCALE
  5
64
102
{ACAD_REACTORS
330
47
102
}
330
47
100
AcDbScale
 70
     0
300
1" = 1'-0"
140
1.0
141
12.0
290
     0
  0
SCALE
  5
65
102
{ACAD_REACTORS
330
47
102
}
330
47
100
AcDbScale
 70
     0
300
1-1/2" = 1'-0"
140
1.5
141
12.0
290
     0
  0
SCALE
  5
66
102
{ACAD_REACTORS
330
47
102
}
330
47
100
AcDbScale
 70
     0
300
3" = 1'-0"
140
3.0
141
12.0
290
     0
  0
SCALE
  5
67
102
{ACAD_REACTORS
330
47
102
}
330
47
100
AcDbScale
 70
     0
300
6" = 1'-0"
140
6.0
141
12.0
290
     0
  0
SCALE
  5
68
102
{ACAD_REACTORS
330
47
102
}
330
47
100
AcDbScale
 70
     0
300
1'-0" = 1'-0"
140
12.0
141
12.0
290
     0
  0
ENDSEC
  0
EOF
